0
SECTION
2
HEADER
9
$INSUNITS
70
4
9
$ACADVER
1
AC1014
9
$HANDSEED
5
FFFF
0
ENDSEC
0
SECTION
2
TABLES
0
TABLE
2
VPORT
5
8
100
AcDbSymbolTable
0
ENDTAB
0
TABLE
2
LTYPE
5
5
100
AcDbSymbolTable
0
LTYPE
5
14
100
AcDbSymbolTableRecord
100
AcDbLinetypeTableRecord
2
BYBLOCK
70
0
0
LTYPE
5
15
100
AcDbSymbolTableRecord
100
AcDbLinetypeTableRecord
2
BYLAYER
70
0
0
ENDTAB
0
TABLE
2
LAYER
5
2
100
AcDbSymbolTable
70
2
0
LAYER
5
50
100
AcDbSymbolTableRecord
100
AcDbLayerTableRecord
2
0
70
0
6
CONTINUOUS
0
ENDTAB
0
TABLE
2
STYLE
5
3
100
AcDbSymbolTable
70
1
0
STYLE
5
11
100
AcDbSymbolTableRecord
100
AcDbTextStyleTableRecord
2
STANDARD
70
0
0
ENDTAB
0
TABLE
2
VIEW
5
6
100
AcDbSymbolTable
70
0
0
ENDTAB
0
TABLE
2
UCS
5
7
100
AcDbSymbolTable
70
0
0
ENDTAB
0
TABLE
2
APPID
5
9
100
AcDbSymbolTable
70
2
0
APPID
5
12
100
AcDbSymbolTableRecord
100
AcDbRegAppTableRecord
2
ACAD
70
0
0
ENDTAB
0
TABLE
2
DIMSTYLE
5
A
100
AcDbSymbolTable
70
1
0
ENDTAB
0
TABLE
2
BLOCK_RECORD
5
1
100
AcDbSymbolTable
70
1
0
BLOCK_RECORD
5
1F
100
AcDbSymbolTableRecord
100
AcDbBlockTableRecord
2
*MODEL_SPACE
0
BLOCK_RECORD
5
1B
100
AcDbSymbolTableRecord
100
AcDbBlockTableRecord
2
*PAPER_SPACE
0
ENDTAB
0
ENDSEC
0
SECTION
2
BLOCKS
0
BLOCK
5
20
100
AcDbEntity
100
AcDbBlockBegin
2
*MODEL_SPACE
0
ENDBLK
5
21
100
AcDbEntity
100
AcDbBlockEnd
0
BLOCK
5
1C
100
AcDbEntity
100
AcDbBlockBegin
2
*PAPER_SPACE
0
ENDBLK
5
1D
100
AcDbEntity
100
AcDbBlockEnd
0
ENDSEC
0
SECTION
2
ENTITIES
0
LINE
5
100
100
AcDbEntity
8
0
100
AcDbLine
10
-1.3
20
-4.5000000000000009
30
0
11
1.6999999999999997
21
-4.5
31
0
0
LINE
5
101
100
AcDbEntity
8
0
100
AcDbLine
10
1.6999999999999997
20
-4.5
30
0
11
1.7000000000000051
21
-7.4999999999999982
31
0
0
LINE
5
102
100
AcDbEntity
8
0
100
AcDbLine
10
1.7000000000000051
20
-7.4999999999999982
30
0
11
4.9000000000000004
21
-7.5000000000000018
31
0
0
LINE
5
103
100
AcDbEntity
8
0
100
AcDbLine
10
4.9000000000000004
20
-7.5000000000000018
30
0
11
4.899999999997724
21
-4.6999999999999948
31
0
0
LINE
5
104
100
AcDbEntity
8
0
100
AcDbLine
10
4.899999999997724
20
-4.6999999999999948
30
0
11
7.5
21
-4.6999999999999966
31
0
0
LINE
5
105
100
AcDbEntity
8
0
100
AcDbLine
10
7.5
20
-4.6999999999999966
30
0
11
7.4999999999999893
21
-1.4999999999999916
31
0
0
LINE
5
106
100
AcDbEntity
8
0
100
AcDbLine
10
7.4999999999999893
20
-1.4999999999999916
30
0
11
4.5
21
-1.4999999999999862
31
0
0
LINE
5
107
100
AcDbEntity
8
0
100
AcDbLine
10
4.5
20
-1.4999999999999862
30
0
11
4.5000000000000053
21
5.1210763686379999e-15
31
0
0
LINE
5
108
100
AcDbEntity
8
0
100
AcDbLine
10
-1.3
20
-4.5000000000000009
30
0
11
-1.3
21
-7.5000000000000009
31
0
0
LINE
5
109
100
AcDbEntity
8
0
100
AcDbLine
10
-1.3
20
-7.5000000000000009
30
0
11
-4.5000000000033271
21
-7.5000000000000036
31
0
0
LINE
5
110
100
AcDbEntity
8
0
100
AcDbLine
10
-4.5000000000033271
20
-7.5000000000000036
30
0
11
-4.4999999999970921
21
-4.7000000000000011
31
0
0
LINE
5
111
100
AcDbEntity
8
0
100
AcDbLine
10
-4.4999999999970921
20
-4.7000000000000011
30
0
11
-7.5000000000000044
21
-4.699999999999994
31
0
0
LINE
5
112
100
AcDbEntity
8
0
100
AcDbLine
10
-7.5000000000000044
20
-4.699999999999994
30
0
11
-7.5000000000000009
21
-1.5000000000000004
31
0
0
LINE
5
113
100
AcDbEntity
8
0
100
AcDbLine
10
-7.5000000000000009
20
-1.5000000000000004
30
0
11
-4.5
21
-1.4999999999999967
31
0
0
LINE
5
114
100
AcDbEntity
8
0
100
AcDbLine
10
-4.5
20
-1.4999999999999967
30
0
11
-4.5
21
0
31
0
0
LINE
5
115
100
AcDbEntity
8
0
100
AcDbLine
10
0
20
0
30
0
11
-0.34178526554421884
21
-1.9515639104739092e-16
31
0
0
LINE
5
116
100
AcDbEntity
8
0
100
AcDbLine
10
1.6999999999999962
20
7.5
30
0
11
4.8999999999999915
21
7.5000000000000089
31
0
0
LINE
5
117
100
AcDbEntity
8
0
100
AcDbLine
10
-7.4999999999999991
20
1.4999999999999902
30
0
11
-4.5000000000000027
21
1.4999999999999902
31
0
0
LINE
5
118
100
AcDbEntity
8
0
100
AcDbLine
10
-4.500000000003336
20
7.4999999999999964
30
0
11
-4.5000000000014655
21
4.6999999999999948
31
0
0
LINE
5
119
100
AcDbEntity
8
0
100
AcDbLine
10
7.4999999999999956
20
4.7000000000000055
30
0
11
7.4999999999999867
21
1.5
31
0
0
LINE
5
120
100
AcDbEntity
8
0
100
AcDbLine
10
-4.5000000000014655
20
4.6999999999999948
30
0
11
-7.5000000000000089
21
4.6999999999999833
31
0
0
LINE
5
121
100
AcDbEntity
8
0
100
AcDbLine
10
-1.3000000000000083
20
7.4999999999999991
30
0
11
-4.500000000003336
21
7.4999999999999964
31
0
0
LINE
5
122
100
AcDbEntity
8
0
100
AcDbLine
10
-1.3000000000000054
20
4.4999999999999982
30
0
11
1.6999999999999953
21
4.5000000000000018
31
0
0
LINE
5
123
100
AcDbEntity
8
0
100
AcDbLine
10
4.8999999999999915
20
7.5000000000000089
30
0
11
4.8999999999977195
21
4.6999999999999993
31
0
0
LINE
5
124
100
AcDbEntity
8
0
100
AcDbLine
10
-7.5000000000000089
20
4.6999999999999833
30
0
11
-7.4999999999999991
21
1.4999999999999902
31
0
0
LINE
5
125
100
AcDbEntity
8
0
100
AcDbLine
10
7.4999999999999867
20
1.5
30
0
11
4.4999999999999973
21
1.4999999999999907
31
0
0
LINE
5
126
100
AcDbEntity
8
0
100
AcDbLine
10
4.8999999999977195
20
4.6999999999999993
30
0
11
7.4999999999999956
21
4.7000000000000055
31
0
0
LINE
5
127
100
AcDbEntity
8
0
100
AcDbLine
10
-1.3000000000000054
20
4.4999999999999982
30
0
11
-1.3000000000000083
21
7.4999999999999991
31
0
0
LINE
5
128
100
AcDbEntity
8
0
100
AcDbLine
10
1.6999999999999953
20
4.5000000000000018
30
0
11
1.6999999999999962
21
7.5
31
0
0
LINE
5
129
100
AcDbEntity
8
0
100
AcDbLine
10
4.4999999999999973
20
1.4999999999999907
30
0
11
4.5000000000000053
21
0
31
0
0
LINE
5
130
100
AcDbEntity
8
0
100
AcDbLine
10
-4.5000000000000027
20
1.4999999999999902
30
0
11
-4.5000000000000009
21
-6.106226635438361e-15
31
0
0
ENDSEC
0
SECTION
2
OBJECTS
0
DICTIONARY
5
C
100
AcDbDictionary
3
ACAD_GROUP
350
D
3
ACAD_MLINESTYLE
350
17
0
DICTIONARY
5
D
100
AcDbDictionary
0
DICTIONARY
5
1A
330
C
100
AcDbDictionary
0
DICTIONARY
5
17
100
AcDbDictionary
0
ENDSEC
0
EOF
